  0
SECTION
  2
HEADER
  9
$ACADVER
  1
AC1015
  9
$ACADMAINTVER
 70
     6
  9
$DWGCODEPAGE
  3
ANSI_1254
  9
$INSBASE
 10
0.0
 20
0.0
 30
0.0
  9
$EXTMIN
 10
0.0
 20
0.0
 30
0.0
  9
$EXTMAX
 10
279.4
 20
215.9
 30
0.0
  9
$LIMMIN
 10
0.0
 20
0.0
  9
$LIMMAX
 10
279.4
 20
215.9
  9
$ORTHOMODE
 70
     0
  9
$REGENMODE
 70
     1
  9
$FILLMODE
 70
     1
  9
$QTEXTMODE
 70
     0
  9
$MIRRTEXT
 70
     1
  9
$LTSCALE
 40
1.0
  9
$ATTMODE
 70
     1
  9
$TEXTSIZE
 40
3.5
  9
$TRACEWID
 40
1.0
  9
$TEXTSTYLE
  7
Standard
  9
$CLAYER
  8
0
  9
$CELTYPE
  6
ByLayer
  9
$CECOLOR
 62
   256
  9
$CELTSCALE
 40
1.0
  9
$DISPSILH
 70
     0
  9
$DIMSCALE
 40
1.0
  9
$DIMASZ
 40
3.5
  9
$DIMEXO
 40
1.0
  9
$DIMDLI
 40
3.75
  9
$DIMRND
 40
0.0
  9
$DIMDLE
 40
0.0
  9
$DIMEXE
 40
1.0
  9
$DIMTP
 40
0.0
  9
$DIMTM
 40
0.0
  9
$DIMTXT
 40
3.5
  9
$DIMCEN
 40
2.5
  9
$DIMTSZ
 40
0.0
  9
$DIMTOL
 70
     0
  9
$DIMLIM
 70
     0
  9
$DIMTIH
 70
     1
  9
$DIMTOH
 70
     1
  9
$DIMSE1
 70
     0
  9
$DIMSE2
 70
     0
  9
$DIMTAD
 70
     1
  9
$DIMZIN
 70
     0
  9
$DIMBLK
  1

  9
$DIMASO
 70
     1
  9
$DIMSHO
 70
     1
  9
$DIMPOST
  1

  9
$DIMAPOST
  1

  9
$DIMALT
 70
     0
  9
$DIMALTD
 70
     3
  9
$DIMALTF
 40
0.0393700787
  9
$DIMLFAC
 40
1.0
  9
$DIMTOFL
 70
     1
  9
$DIMTVP
 40
0.0
  9
$DIMTIX
 70
     0
  9
$DIMSOXD
 70
     0
  9
$DIMSAH
 70
     0
  9
$DIMBLK1
  1

  9
$DIMBLK2
  1

  9
$DIMSTYLE
  2
ISO-25
  9
$DIMCLRD
 70
     0
  9
$DIMCLRE
 70
     0
  9
$DIMCLRT
 70
     0
  9
$DIMTFAC
 40
1.0
  9
$DIMGAP
 40
1.524
  9
$DIMJUST
 70
     0
  9
$DIMSD1
 70
     0
  9
$DIMSD2
 70
     0
  9
$DIMTOLJ
 70
     0
  9
$DIMTZIN
 70
     0
  9
$DIMALTZ
 70
     0
  9
$DIMALTTZ
 70
     0
  9
$DIMUPT
 70
     0
  9
$DIMDEC
 70
     2
  9
$DIMTDEC
 70
     2
  9
$DIMALTU
 70
     2
  9
$DIMALTTD
 70
     3
  9
$DIMTXSTY
  7
Standard
  9
$DIMAUNIT
 70
     0
  9
$DIMADEC
 70
     2
  9
$DIMALTRND
 40
0.0
  9
$DIMAZIN
 70
     0
  9
$DIMDSEP
 70
    44
  9
$DIMATFIT
 70
     3
  9
$DIMFRAC
 70
     0
  9
$DIMLDRBLK
  1

  9
$DIMLUNIT
 70
     2
  9
$DIMLWD
 70
    -2
  9
$DIMLWE
 70
    -2
  9
$DIMTMOVE
 70
     0
  9
$LUNITS
 70
     2
  9
$LUPREC
 70
     2
  9
$SKETCHINC
 40
1.0
  9
$FILLETRAD
 40
10.0
  9
$AUNITS
 70
     0
  9
$AUPREC
 70
     2
  9
$MENU
  1
.
  9
$ELEVATION
 40
0.0
  9
$PELEVATION
 40
0.0
  9
$THICKNESS
 40
0.0
  9
$LIMCHECK
 70
     0
  9
$CHAMFERA
 40
0.0
  9
$CHAMFERB
 40
0.0
  9
$CHAMFERC
 40
0.0
  9
$CHAMFERD
 40
0.0
  9
$SKPOLY
 70
     0
  9
$TDCREATE
 40
2460682.519561482
  9
$TDUCREATE
 40
2460682.394561482
  9
$TDUPDATE
 40
2460682.519561482
  9
$TDUUPDATE
 40
2460682.394561482
  9
$TDINDWG
 40
0.0000000116
  9
$TDUSRTIMER
 40
0.0000000116
  9
$USRTIMER
 70
     1
  9
$ANGBASE
 50
0.0
  9
$ANGDIR
 70
     0
  9
$PDMODE
 70
     0
  9
$PDSIZE
 40
-1.0
  9
$PLINEWID
 40
0.0
  9
$SPLFRAME
 70
     0
  9
$SPLINETYPE
 70
     6
  9
$SPLINESEGS
 70
     8
  9
$HANDSEED
  5
BF
  9
$SURFTAB1
 70
     6
  9
$SURFTAB2
 70
     6
  9
$SURFTYPE
 70
     6
  9
$SURFU
 70
     6
  9
$SURFV
 70
     6
  9
$UCSBASE
  2

  9
$UCSNAME
  2

  9
$UCSORG
 10
0.0
 20
0.0
 30
0.0
  9
$UCSXDIR
 10
1.0
 20
0.0
 30
0.0
  9
$UCSYDIR
 10
0.0
 20
1.0
 30
0.0
  9
$UCSORTHOREF
  2

  9
$UCSORTHOVIEW
 70
     0
  9
$UCSORGTOP
 10
0.0
 20
0.0
 30
0.0
  9
$UCSORGBOTTOM
 10
0.0
 20
0.0
 30
0.0
  9
$UCSORGLEFT
 10
0.0
 20
0.0
 30
0.0
  9
$UCSORGRIGHT
 10
0.0
 20
0.0
 30
0.0
  9
$UCSORGFRONT
 10
0.0
 20
0.0
 30
0.0
  9
$UCSORGBACK
 10
0.0
 20
0.0
 30
0.0
  9
$PUCSBASE
  2

  9
$PUCSNAME
  2

  9
$PUCSORG
 10
0.0
 20
0.0
 30
0.0
  9
$PUCSXDIR
 10
1.0
 20
0.0
 30
0.0
  9
$PUCSYDIR
 10
0.0
 20
1.0
 30
0.0
  9
$PUCSORTHOREF
  2

  9
$PUCSORTHOVIEW
 70
     0
  9
$PUCSORGTOP
 10
0.0
 20
0.0
 30
0.0
  9
$PUCSORGBOTTOM
 10
0.0
 20
0.0
 30
0.0
  9
$PUCSORGLEFT
 10
0.0
 20
0.0
 30
0.0
  9
$PUCSORGRIGHT
 10
0.0
 20
0.0
 30
0.0
  9
$PUCSORGFRONT
 10
0.0
 20
0.0
 30
0.0
  9
$PUCSORGBACK
 10
0.0
 20
0.0
 30
0.0
  9
$USERI1
 70
     0
  9
$USERI2
 70
     0
  9
$USERI3
 70
     0
  9
$USERI4
 70
     0
  9
$USERI5
 70
     0
  9
$USERR1
 40
0.0
  9
$USERR2
 40
0.0
  9
$USERR3
 40
0.0
  9
$USERR4
 40
0.0
  9
$USERR5
 40
0.0
  9
$WORLDVIEW
 70
     1
  9
$SHADEDGE
 70
     3
  9
$SHADEDIF
 70
    70
  9
$TILEMODE
 70
     1
  9
$MAXACTVP
 70
    64
  9
$PINSBASE
 10
0.0
 20
0.0
 30
0.0
  9
$PLIMCHECK
 70
     0
  9
$PEXTMIN
 10
1.0000000000E+20
 20
1.0000000000E+20
 30
1.0000000000E+20
  9
$PEXTMAX
 10
-1.0000000000E+20
 20
-1.0000000000E+20
 30
-1.0000000000E+20
  9
$PLIMMIN
 10
0.0
 20
0.0
  9
$PLIMMAX
 10
420.0
 20
297.0
  9
$UNITMODE
 70
     0
  9
$VISRETAIN
 70
     1
  9
$PLINEGEN
 70
     0
  9
$PSLTSCALE
 70
     1
  9
$TREEDEPTH
 70
  3020
  9
$CMLSTYLE
  2
Standard
  9
$CMLJUST
 70
     0
  9
$CMLSCALE
 40
20.0
  9
$PROXYGRAPHICS
 70
     1
  9
$MEASUREMENT
 70
     1
  9
$CELWEIGHT
370
    -1
  9
$ENDCAPS
280
     0
  9
$JOINSTYLE
280
     0
  9
$LWDISPLAY
290
     1
  9
$INSUNITS
 70
     4
  9
$HYPERLINKBASE
  1

  9
$STYLESHEET
  1

  9
$XEDIT
290
     1
  9
$CEPSNTYPE
380
     0
  9
$PSTYLEMODE
290
     1
  9
$FINGERPRINTGUID
  2
{50445cf7-eb33-4ada-8851-0883e8956ae0}
  9
$VERSIONGUID
  2
{FAEB1C32-E019-11D5-929B-00C0DF256EC4}
  9
$EXTNAMES
290
     1
  9
$PSVPSCALE
 40
0.0
  9
$OLESTARTUP
290
     0
  0
ENDSEC
  0
SECTION
  2
CLASSES
  0
CLASS
  1
ACDBDICTIONARYWDFLT
  2
AcDbDictionaryWithDefault
  3
ObjectDBX Classes
 90
        0
280
     0
281
     0
  0
CLASS
  1
VISUALSTYLE
  2
AcDbVisualStyle
  3
ObjectDBX Classes
 90
     4095
280
     0
281
     0
  0
CLASS
  1
MATERIAL
  2
AcDbMaterial
  3
ObjectDBX Classes
 90
     1153
280
     0
281
     0
  0
CLASS
  1
SCALE
  2
AcDbScale
  3
ObjectDBX Classes
 90
     1153
280
     0
281
     0
  0
CLASS
  1
TABLESTYLE
  2
AcDbTableStyle
  3
ObjectDBX Classes
 90
     4095
280
     0
281
     0
  0
CLASS
  1
MLEADERSTYLE
  2
AcDbMLeaderStyle
  3
ACDB_MLEADERSTYLE_CLASS
 90
     4095
280
     0
281
     0
  0
CLASS
  1
SUN
  2
AcDbSun
  3
SCENEOE
 90
     1153
280
     0
281
     0
  0
CLASS
  1
ACDBPLACEHOLDER
  2
AcDbPlaceHolder
  3
ObjectDBX Classes
 90
        0
280
     0
281
     0
  0
CLASS
  1
LAYOUT
  2
AcDbLayout
  3
ObjectDBX Classes
 90
        0
280
     0
281
     0
  0
ENDSEC
  0
SECTION
  2
TABLES
  0
TABLE
  2
VPORT
  5
8
330
0
100
AcDbSymbolTable
 70
     1
  0
VPORT
  5
29
330
8
100
AcDbSymbolTableRecord
100
AcDbViewportTableRecord
  2
*Active
 70
     0
 10
0.0
 20
0.0
 11
1.0
 21
1.0
 12
139.7
 22
107.95
 13
0.0
 23
0.0
 14
10.0
 24
10.0
 15
10.0
 25
10.0
 16
0.0
 26
0.0
 36
1.0
 17
0.0
 27
0.0
 37
0.0
 40
215.9
 41
1.2941176471
 42
50.0
 43
0.0
 44
0.0
 50
0.0
 51
0.0
 71
     0
 72
  2000
 73
     1
 74
     3
 75
     0
 76
     0
 77
     0
 78
     0
281
     0
 65
     1
110
0.0
120
0.0
130
0.0
111
1.0
121
0.0
131
0.0
112
0.0
122
1.0
132
0.0
 79
     0
146
0.0
  0
ENDTAB
  0
TABLE
  2
LTYPE
  5
5
330
0
100
AcDbSymbolTable
 70
     6
  0
LTYPE
  5
14
330
5
100
AcDbSymbolTableRecord
100
AcDbLinetypeTableRecord
  2
ByBlock
 70
     0
  3

 72
    65
 73
     0
 40
0.0
  0
LTYPE
  5
15
330
5
100
AcDbSymbolTableRecord
100
AcDbLinetypeTableRecord
  2
ByLayer
 70
     0
  3

 72
    65
 73
     0
 40
0.0
  0
LTYPE
  5
16
330
5
100
AcDbSymbolTableRecord
100
AcDbLinetypeTableRecord
  2
Continuous
 70
     0
  3
Solid line
 72
    65
 73
     0
 40
0.0
  0
LTYPE
  5
6E
330
5
100
AcDbSymbolTableRecord
100
AcDbLinetypeTableRecord
  2
HIDDEN
 70
     0
  3
Hidden __ __ __ __ __ __ __ __ __ __ __ __ __ __
 72
    65
 73
     2
 40
1.905
 49
1.27
 74
     0
 49
-0.635
 74
     0
  0
LTYPE
  5
6F
330
5
100
AcDbSymbolTableRecord
100
AcDbLinetypeTableRecord
  2
PHANTOM
 70
     0
  3
Phantom ______  __  __  ______  __  __  ______
 72
    65
 73
     6
 40
12.7
 49
6.35
 74
     0
 49
-1.27
 74
     0
 49
1.27
 74
     0
 49
-1.27
 74
     0
 49
1.27
 74
     0
 49
-1.27
 74
     0
  0
LTYPE
  5
70
330
5
100
AcDbSymbolTableRecord
100
AcDbLinetypeTableRecord
  2
CENTER
 70
     0
  3
Center ____ _ ____ _ ____ _ ____ _ ____ _ ____
 72
    65
 73
     4
 40
10.16
 49
6.35
 74
     0
 49
-1.27
 74
     0
 49
1.27
 74
     0
 49
-1.27
 74
     0
  0
LTYPE
  5
71
330
5
100
AcDbSymbolTableRecord
100
AcDbLinetypeTableRecord
  2
CENTERX2
 70
     0
  3
Center (2x) ________  __  ________  __  _____
 72
    65
 73
     4
 40
20.32
 49
12.7
 74
     0
 49
-2.54
 74
     0
 49
2.54
 74
     0
 49
-2.54
 74
     0
  0
LTYPE
  5
72
330
5
100
AcDbSymbolTableRecord
100
AcDbLinetypeTableRecord
  2
DOT2
 70
     0
  3
Dot (.5x) ........................................
 72
    65
 73
     2
 40
0.635
 49
0.0
 74
     0
 49
-0.635
 74
     0
  0
ENDTAB
  0
TABLE
  2
LAYER
  5
2
330
0
100
AcDbSymbolTable
 70
    17
  0
LAYER
  5
10
330
2
100
AcDbSymbolTableRecord
100
AcDbLayerTableRecord
  2
0
 70
     0
 62
     7
  6
Continuous
370
    -3
390
F
  0
LAYER
  5
73
330
2
100
AcDbSymbolTableRecord
100
AcDbLayerTableRecord
  2
FORMAT
 70
     0
 62
     7
  6
Continuous
370
    -3
390
F
  0
LAYER
  5
74
330
2
100
AcDbSymbolTableRecord
100
AcDbLayerTableRecord
  2
YARDIMCI_GEOMETRI
 70
     0
 62
    -6
  6
Continuous
290
     0
370
    -3
390
F
  0
LAYER
  5
75
330
2
100
AcDbSymbolTableRecord
100
AcDbLayerTableRecord
  2
SAYFA_CERCEVESI
 70
     0
 62
     7
  6
Continuous
370
    25
390
F
  0
LAYER
  5
76
330
2
100
AcDbSymbolTableRecord
100
AcDbLayerTableRecord
  2
ANTET
 70
     0
 62
     7
  6
Continuous
370
    -3
390
F
  0
LAYER
  5
77
330
2
100
AcDbSymbolTableRecord
100
AcDbLayerTableRecord
  2
OLCU
 70
     0
 62
   150
  6
Continuous
370
    -3
390
F
  0
LAYER
  5
78
330
2
100
AcDbSymbolTableRecord
100
AcDbLayerTableRecord
  2
METIN
 70
     0
 62
    96
  6
Continuous
370
    -3
390
F
  0
LAYER
  5
79
330
2
100
AcDbSymbolTableRecord
100
AcDbLayerTableRecord
  2
BALON
 70
     0
 62
     5
  6
Continuous
370
    -3
390
F
  0
LAYER
  5
7A
330
2
100
AcDbSymbolTableRecord
100
AcDbLayerTableRecord
  2
VURGU
 70
     0
 62
     7
  6
Continuous
370
    -3
390
F
  0
LAYER
  5
7B
330
2
100
AcDbSymbolTableRecord
100
AcDbLayerTableRecord
  2
SILIK
 70
     0
 62
     7
  6
Continuous
370
    -3
390
F
  0
LAYER
  5
7C
330
2
100
AcDbSymbolTableRecord
100
AcDbLayerTableRecord
  2
MODEL
 70
     0
 62
     7
  6
Continuous
370
    -3
390
F
  0
LAYER
  5
7D
330
2
100
AcDbSymbolTableRecord
100
AcDbLayerTableRecord
  2
DETAYLANDıRMA
 70
     0
 62
   190
  6
Continuous
370
    -3
390
F
  0
LAYER
  5
7E
330
2
100
AcDbSymbolTableRecord
100
AcDbLayerTableRecord
  2
TOLERANS
 70
     0
 62
   230
  6
Continuous
370
    -3
390
F
  0
LAYER
  5
7F
330
2
100
AcDbSymbolTableRecord
100
AcDbLayerTableRecord
  2
MERKEZ_CIZGILERI
 70
     0
 62
    30
  6
Continuous
370
    -3
390
F
  0
LAYER
  5
80
330
2
100
AcDbSymbolTableRecord
100
AcDbLayerTableRecord
  2
KESIT-DETAY_CIZGILERI
 70
     0
 62
     7
  6
Continuous
370
    -3
390
F
  0
LAYER
  5
81
330
2
100
AcDbSymbolTableRecord
100
AcDbLayerTableRecord
  2
\U+041E\U+0421\U+0415\U+0412\U+042B\U+0415
 70
     0
 62
     7
  6
Continuous
370
    -3
390
F
  0
LAYER
  5
82
330
2
100
AcDbSymbolTableRecord
100
AcDbLayerTableRecord
  2
\U+0412\U+041E\U+0414\U+042F\U+041D\U+042B\U+0415_\U+0417\U+041D\U+0410\U+041A\U+0418
 70
     0
 62
    11
  6
Continuous
370
    -3
390
F
  0
ENDTAB
  0
TABLE
  2
STYLE
  5
3
330
0
100
AcDbSymbolTable
 70
     1
  0
STYLE
  5
11
330
3
100
AcDbSymbolTableRecord
100
AcDbTextStyleTableRecord
  2
Standard
 70
     0
 40
0.0
 41
1.0
 50
0.0
 71
     0
 42
3.5
  3
txt
  4

  0
ENDTAB
  0
TABLE
  2
VIEW
  5
6
330
0
100
AcDbSymbolTable
 70
     0
  0
ENDTAB
  0
TABLE
  2
UCS
  5
7
330
0
100
AcDbSymbolTable
 70
     0
  0
ENDTAB
  0
TABLE
  2
APPID
  5
9
330
0
100
AcDbSymbolTable
 70
     1
  0
APPID
  5
12
330
9
100
AcDbSymbolTableRecord
100
AcDbRegAppTableRecord
  2
ACAD
 70
     0
  0
ENDTAB
  0
TABLE
  2
DIMSTYLE
  5
A
330
0
100
AcDbSymbolTable
 70
     1
100
AcDbDimStyleTable
  0
DIMSTYLE
105
27
330
A
100
AcDbSymbolTableRecord
100
AcDbDimStyleTableRecord
  2
ISO-25
 70
     0
 41
2.5
 42
0.625
 43
3.75
 44
1.25
 73
     0
 74
     0
 77
     1
 78
     8
140
2.5
141
2.5
143
0.0393700787
147
0.625
171
     3
172
     1
178
     0
271
     2
272
     2
274
     3
278
    44
283
     0
284
     8
340
11
  0
ENDTAB
  0
TABLE
  2
BLOCK_RECORD
  5
1
330
0
100
AcDbSymbolTable
 70
     2
  0
BLOCK_RECORD
  5
1F
330
1
100
AcDbSymbolTableRecord
100
AcDbBlockTableRecord
  2
*Model_Space
340
22
  0
BLOCK_RECORD
  5
1B
330
1
100
AcDbSymbolTableRecord
100
AcDbBlockTableRecord
  2
*Paper_Space
340
1E
  0
BLOCK_RECORD
  5
23
330
1
100
AcDbSymbolTableRecord
100
AcDbBlockTableRecord
  2
*Paper_Space0
340
26
  0
BLOCK_RECORD
  5
A2
330
1
100
AcDbSymbolTableRecord
100
AcDbBlockTableRecord
  2
SW_CENTERMARKSYMBOL_0
340
0
102
{BLKREFS
331
AD
102
}
  0
ENDTAB
  0
ENDSEC
  0
SECTION
  2
BLOCKS
  0
BLOCK
  5
20
330
1F
100
AcDbEntity
  8
0
100
AcDbBlockBegin
  2
*Model_Space
 70
     0
 10
0.0
 20
0.0
 30
0.0
  3
*Model_Space
  1

  0
ENDBLK
  5
21
330
1F
100
AcDbEntity
  8
0
100
AcDbBlockEnd
  0
BLOCK
  5
1C
330
1B
100
AcDbEntity
 67
     1
  8
0
100
AcDbBlockBegin
  2
*Paper_Space
 70
     0
 10
0.0
 20
0.0
 30
0.0
  3
*Paper_Space
  1

  0
ENDBLK
  5
1D
330
1B
100
AcDbEntity
 67
     1
  8
0
100
AcDbBlockEnd
  0
BLOCK
  5
24
330
23
100
AcDbEntity
  8
0
100
AcDbBlockBegin
  2
*Paper_Space0
 70
     0
 10
0.0
 20
0.0
 30
0.0
  3
*Paper_Space0
  1

  0
ENDBLK
  5
25
330
23
100
AcDbEntity
  8
0
100
AcDbBlockEnd
  0
BLOCK
  5
A3
330
A2
100
AcDbEntity
  8
0
100
AcDbBlockBegin
  2
SW_CENTERMARKSYMBOL_0
 70
     0
 10
0.0
 20
0.0
 30
0.0
  3
SW_CENTERMARKSYMBOL_0
  1

  0
LINE
  5
A5
330
A2
100
AcDbEntity
  8
FORMAT
 62
     0
100
AcDbLine
 10
0.0
 20
0.0
 30
0.0
 11
0.0
 21
2.5
 31
0.0
  0
LINE
  5
A6
330
A2
100
AcDbEntity
  8
FORMAT
 62
     0
100
AcDbLine
 10
0.0
 20
0.0
 30
0.0
 11
-2.5
 21
0.0
 31
0.0
  0
LINE
  5
A7
330
A2
100
AcDbEntity
  8
FORMAT
 62
     0
100
AcDbLine
 10
0.0
 20
0.0
 30
0.0
 11
0.0
 21
-2.5
 31
0.0
  0
LINE
  5
A8
330
A2
100
AcDbEntity
  8
FORMAT
 62
     0
100
AcDbLine
 10
0.0
 20
0.0
 30
0.0
 11
2.5
 21
0.0
 31
0.0
  0
LINE
  5
A9
330
A2
100
AcDbEntity
  8
FORMAT
 62
     0
100
AcDbLine
 10
0.0
 20
5.0
 30
0.0
 11
0.0
 21
82.5
 31
0.0
  0
LINE
  5
AA
330
A2
100
AcDbEntity
  8
FORMAT
 62
     0
100
AcDbLine
 10
-5.0
 20
0.0
 30
0.0
 11
-82.5
 21
0.0
 31
0.0
  0
LINE
  5
AB
330
A2
100
AcDbEntity
  8
FORMAT
 62
     0
100
AcDbLine
 10
0.0
 20
-5.0
 30
0.0
 11
0.0
 21
-82.5
 31
0.0
  0
LINE
  5
AC
330
A2
100
AcDbEntity
  8
FORMAT
 62
     0
100
AcDbLine
 10
5.0
 20
0.0
 30
0.0
 11
82.5
 21
0.0
 31
0.0
  0
ENDBLK
  5
A4
330
A2
100
AcDbEntity
  8
0
100
AcDbBlockEnd
  0
ENDSEC
  0
SECTION
  2
ENTITIES
  0
LINE
  5
83
330
1F
100
AcDbEntity
  8
0
  6
Continuous
 62
     7
370
    25
100
AcDbLine
 10
139.5753578881
 20
296.5400257406
 30
0.0
 11
49.0085308464
 21
139.673679824
 31
0.0
  0
LINE
  5
84
330
1F
100
AcDbEntity
  8
0
  6
Continuous
 62
     7
370
    25
100
AcDbLine
 10
209.0085308464
 20
96.801809035
 30
0.0
 11
278.1394224936
 21
216.5400257406
 31
0.0
  0
LINE
  5
85
330
1F
100
AcDbEntity
  8
0
  6
Continuous
 62
     7
370
    25
100
AcDbLine
 10
49.0085308464
 20
139.673679824
 30
0.0
 11
49.0085308464
 21
-41.4599742594
 31
0.0
  0
LINE
  5
86
330
1F
100
AcDbEntity
  8
0
  6
Continuous
 62
     7
370
    25
100
AcDbLine
 10
209.0085308464
 20
-41.4599742594
 30
0.0
 11
209.0085308464
 21
96.801809035
 31
0.0
  0
LINE
  5
87
330
1F
100
AcDbEntity
  8
0
  6
Continuous
 62
     7
370
    25
100
AcDbLine
 10
208.8573901908
 20
256.5400257406
 30
0.0
 11
278.1394224936
 21
216.5400257406
 31
0.0
  0
LINE
  5
88
330
1F
100
AcDbEntity
  8
0
  6
Continuous
 62
     7
370
    25
100
AcDbLine
 10
139.5753578881
 20
296.5400257406
 30
0.0
 11
208.8573901908
 21
256.5400257406
 31
0.0
  0
LINE
  5
89
330
1F
100
AcDbEntity
  8
0
  6
Continuous
 62
     7
370
    25
100
AcDbLine
 10
209.0085308464
 20
96.801809035
 30
0.0
 11
49.0085308464
 21
139.673679824
 31
0.0
  0
LINE
  5
8A
330
1F
100
AcDbEntity
  8
0
  6
Continuous
 62
     7
370
    25
100
AcDbLine
 10
129.0085308464
 20
-41.4599742594
 30
0.0
 11
209.0085308464
 21
-41.4599742594
 31
0.0
  0
LINE
  5
8B
330
1F
100
AcDbEntity
  8
0
  6
Continuous
 62
     7
370
    25
100
AcDbLine
 10
49.0085308464
 20
-41.4599742594
 30
0.0
 11
129.0085308464
 21
-41.4599742594
 31
0.0
  0
LINE
  5
8C
330
1F
100
AcDbEntity
  8
0
  6
Continuous
 62
     7
370
    25
100
AcDbLine
 10
-231.6226793352
 20
256.5400257406
 30
0.0
 11
-231.6226793352
 21
118.2377444295
 31
0.0
  0
LINE
  5
8D
330
1F
100
AcDbEntity
  8
0
  6
Continuous
 62
     7
370
    25
100
AcDbLine
 10
-71.6226793352
 20
118.2377444295
 30
0.0
 11
-71.6226793352
 21
256.5400257406
 31
0.0
  0
LINE
  5
8E
330
1F
100
AcDbEntity
  8
0
  6
Continuous
 62
     7
370
    25
100
AcDbLine
 10
-231.6226793352
 20
118.2377444295
 30
0.0
 11
-231.6226793352
 21
-41.4599742594
 31
0.0
  0
LINE
  5
8F
330
1F
100
AcDbEntity
  8
0
  6
Continuous
 62
     7
370
    25
100
AcDbLine
 10
-71.6226793352
 20
-41.4599742594
 30
0.0
 11
-71.6226793352
 21
118.2377444295
 31
0.0
  0
LWPOLYLINE
  5
90
330
1F
100
AcDbEntity
  8
0
  6
Continuous
 62
     7
370
    25
100
AcDbPolyline
 90
      103
 70
   128
 43
0.0
 10
-231.6226793352
 20
256.5400257406
 10
-231.4709456342
 20
254.0775894952
 10
-231.016320109
 20
251.624494114
 10
-230.2605273099
 20
249.1900450279
 10
-229.206434218
 20
246.7834769362
 10
-227.8580393694
 20
244.413918776
 10
-226.2204576876
 20
242.0903590931
 10
-224.2999010808
 20
239.8216119451
 10
-222.1036548781
 20
237.6162834671
 10
-219.6400501936
 20
235.4827392255
 10
-216.9184323237
 20
233.4290724842
 10
-213.9491252973
 20
231.4630735048
 10
-210.7433927129
 20
229.5921999947
 10
-207.3133950123
 20
227.823548818
 10
-203.6721433516
 20
226.1638290744
 10
-199.8334502456
 20
224.6193366493
 10
-195.8118771721
 20
223.1959303317
 10
-191.6226793352
 20
221.8990095892
 10
-187.2817477973
 20
220.7334940864
 10
-182.8055491986
 20
219.7038050228
 10
-178.2110632936
 20
218.8138483617
 10
-173.515718541
 20
218.0670000136
 10
-168.7373259917
 20
217.4660930302
 10
-163.8940117255
 20
217.0134068573
 10
-159.0041480923
 20
216.7106586888
 10
-154.0862840197
 20
216.558996952
 10
-149.1590746507
 20
216.558996952
 10
-144.2412105782
 20
216.7106586888
 10
-139.3513469449
 20
217.0134068573
 10
-134.5080326787
 20
217.4660930302
 10
-129.7296401295
 20
218.0670000136
 10
-125.0342953768
 20
218.8138483617
 10
-120.4398094718
 20
219.7038050228
 10
-115.9636108731
 20
220.7334940864
 10
-111.6226793352
 20
221.8990095892
 10
-107.4334814984
 20
223.1959303317
 10
-103.4119084249
 20
224.6193366493
 10
-99.5732153189
 20
226.1638290744
 10
-95.9319636582
 20
227.823548818
 10
-92.5019659576
 20
229.5921999947
 10
-89.2962333732
 20
231.4630735048
 10
-86.3269263467
 20
233.4290724842
 10
-83.6053084769
 20
235.4827392255
 10
-81.1417037924
 20
237.6162834671
 10
-78.9454575897
 20
239.8216119451
 10
-77.0249009829
 20
242.0903590931
 10
-75.387319301
 20
244.413918776
 10
-74.0389244524
 20
246.7834769362
 10
-72.9848313605
 20
249.1900450279
 10
-72.2290385615
 20
251.624494114
 10
-71.7744130363
 20
254.0775894952
 10
-71.6226793352
 20
256.5400257406
 10
-71.7744130363
 20
259.0024619859
 10
-72.2290385615
 20
261.4555573671
 10
-72.9848313605
 20
263.8900064532
 10
-74.0389244524
 20
266.2965745449
 10
-75.387319301
 20
268.6661327051
 10
-77.0249009829
 20
270.989692388
 10
-78.9454575897
 20
273.258439536
 10
-81.1417037924
 20
275.463768014
 10
-83.6053084769
 20
277.5973122557
 10
-86.3269263467
 20
279.6509789969
 10
-89.2962333732
 20
281.6169779763
 10
-92.5019659576
 20
283.4878514864
 10
-95.9319636582
 20
285.2565026631
 10
-99.5732153189
 20
286.9162224067
 10
-103.4119084249
 20
288.4607148318
 10
-107.4334814984
 20
289.8841211494
 10
-111.6226793352
 20
291.1810418919
 10
-115.9636108731
 20
292.3465573948
 10
-120.4398094718
 20
293.3762464584
 10
-125.0342953768
 20
294.2662031194
 10
-129.7296401295
 20
295.0130514675
 10
-134.5080326787
 20
295.6139584509
 10
-139.3513469449
 20
296.0666446238
 10
-144.2412105782
 20
296.3693927924
 10
-149.1590746507
 20
296.5210545291
 10
-154.0862840197
 20
296.5210545291
 10
-159.0041480923
 20
296.3693927924
 10
-163.8940117255
 20
296.0666446238
 10
-168.7373259917
 20
295.6139584509
 10
-173.515718541
 20
295.0130514675
 10
-178.2110632936
 20
294.2662031194
 10
-182.8055491986
 20
293.3762464584
 10
-187.2817477973
 20
292.3465573948
 10
-191.6226793352
 20
291.1810418919
 10
-195.8118771721
 20
289.8841211494
 10
-199.8334502456
 20
288.4607148318
 10
-203.6721433516
 20
286.9162224067
 10
-207.3133950123
 20
285.2565026631
 10
-210.7433927129
 20
283.4878514864
 10
-213.9491252973
 20
281.6169779763
 10
-216.9184323237
 20
279.6509789969
 10
-219.6400501936
 20
277.5973122557
 10
-222.1036548781
 20
275.463768014
 10
-224.2999010808
 20
273.258439536
 10
-226.2204576876
 20
270.989692388
 10
-227.8580393694
 20
268.6661327051
 10
-229.206434218
 20
266.2965745449
 10
-230.2605273099
 20
263.8900064532
 10
-231.016320109
 20
261.4555573671
 10
-231.4709456342
 20
259.0024619859
 10
-231.6226793352
 20
256.5400257406
  0
ELLIPSE
  5
91
330
1F
100
AcDbEntity
  8
0
  6
Continuous
 62
     7
370
    25
100
AcDbEllipse
 10
-151.6226793352
 20
118.2377444295
 30
0.0
 11
80.00000000000001
 21
0.0
 31
0.0
210
0.0
220
0.0
230
1.0
 40
0.2679491924
 41
3.141592653589849
 42
6.283185307179586
  0
LWPOLYLINE
  5
92
330
1F
100
AcDbEntity
  8
0
  6
Continuous
 62
     7
370
    25
100
AcDbPolyline
 90
       93
 70
   128
 43
0.0
 10
-217.0226793352
 20
256.5400257406
 10
-216.8702168403
 20
258.7715526576
 10
-216.413540206
 20
260.992675166
 10
-215.6547786696
 20
263.1930373674
 10
-214.5974699278
 20
265.3623801574
 10
-213.2465436418
 20
267.4905890585
 10
-211.6082984537
 20
269.5677413785
 10
-209.6903726187
 20
271.5841524744
 10
-207.5017083926
 20
273.5304209067
 10
-205.0525103381
 20
275.3974722737
 10
-202.3541977473
 20
277.17660152
 10
-199.419351399
 20
278.8595135238
 10
-196.2616549017
 20
280.4383617725
 10
-192.8958308941
 20
281.9057849466
 10
-189.3375724015
 20
283.254941242
 10
-185.6034696675
 20
284.4795402692
 10
-181.7109328028
 20
285.5738723823
 10
-177.6781106112
 20
286.5328352998
 10
-173.5238059712
 20
287.3519578938
 10
-169.2673881689
 20
288.0274210368
 10
-164.9287025889
 20
288.5560754078
 10
-160.5279781861
 20
288.9354561759
 10
-156.0857331693
 20
289.1637944931
 10
-151.6226793352
 20
289.2400257406
 10
-147.1596255012
 20
289.1637944931
 10
-142.7173804843
 20
288.9354561759
 10
-138.3166560816
 20
288.5560754078
 10
-133.9779705016
 20
288.0274210368
 10
-129.7215526992
 20
287.3519578938
 10
-125.5672480593
 20
286.5328352998
 10
-121.5344258676
 20
285.5738723823
 10
-117.6418890029
 20
284.4795402692
 10
-113.9077862689
 20
283.254941242
 10
-110.3495277763
 20
281.9057849466
 10
-106.9837037687
 20
280.4383617725
 10
-103.8260072714
 20
278.8595135238
 10
-100.8911609232
 20
277.17660152
 10
-98.1928483323
 20
275.3974722737
 10
-95.7436502779
 20
273.5304209067
 10
-93.5549860517
 20
271.5841524744
 10
-91.6370602168
 20
269.5677413785
 10
-89.9988150287
 20
267.4905890585
 10
-88.6478887427
 20
265.3623801574
 10
-87.5905800008
 20
263.1930373674
 10
-86.8318184644
 20
260.992675166
 10
-86.3751418302
 20
258.7715526576
 10
-86.2226793352
 20
256.5400257406
 10
-86.3751418302
 20
254.3084988235
 10
-86.8318184644
 20
252.0873763151
 10
-87.5905800008
 20
249.8870141137
 10
-88.6478887427
 20
247.7176713237
 10
-89.9988150287
 20
245.5894624226
 10
-91.6370602168
 20
243.5123101026
 10
-93.5549860517
 20
241.4958990067
 10
-95.7436502779
 20
239.5496305744
 10
-98.1928483323
 20
237.6825792074
 10
-100.8911609232
 20
235.9034499611
 10
-103.8260072714
 20
234.2205379573
 10
-106.9837037687
 20
232.6416897087
 10
-110.3495277763
 20
231.1742665345
 10
-113.9077862689
 20
229.8251102391
 10
-117.6418890029
 20
228.6005112119
 10
-121.5344258676
 20
227.5061790988
 10
-125.5672480593
 20
226.5472161813
 10
-129.7215526992
 20
225.7280935873
 10
-133.9779705016
 20
225.0526304443
 10
-138.3166560816
 20
224.5239760733
 10
-142.7173804843
 20
224.1445953052
 10
-147.1596255012
 20
223.916256988
 10
-151.6226793352
 20
223.8400257406
 10
-156.0857331693
 20
223.916256988
 10
-160.5279781861
 20
224.1445953052
 10
-164.9287025889
 20
224.5239760733
 10
-169.2673881689
 20
225.0526304443
 10
-173.5238059712
 20
225.7280935873
 10
-177.6781106112
 20
226.5472161813
 10
-181.7109328028
 20
227.5061790988
 10
-185.6034696675
 20
228.6005112119
 10
-189.3375724015
 20
229.8251102391
 10
-192.8958308941
 20
231.1742665345
 10
-196.2616549017
 20
232.6416897087
 10
-199.419351399
 20
234.2205379573
 10
-202.3541977473
 20
235.9034499611
 10
-205.0525103381
 20
237.6825792074
 10
-207.5017083926
 20
239.5496305744
 10
-209.6903726187
 20
241.4958990067
 10
-211.6082984537
 20
243.5123101026
 10
-213.2465436418
 20
245.5894624226
 10
-214.5974699278
 20
247.7176713237
 10
-215.6547786696
 20
249.8870141137
 10
-216.413540206
 20
252.0873763151
 10
-216.8702168403
 20
254.3084988235
 10
-217.0226793352
 20
256.5400257406
  0
LINE
  5
93
330
1F
100
AcDbEntity
  8
0
  6
Continuous
 62
     7
370
    25
100
AcDbLine
 10
-231.6226793352
 20
-41.4599742594
 30
0.0
 11
-71.6226793352
 21
-41.4599742594
 31
0.0
  0
LINE
  5
94
330
1F
100
AcDbEntity
  8
0
  6
Continuous
 62
     7
370
    25
100
AcDbLine
 10
308.0915249018
 20
256.5400257406
 30
0.0
 11
308.0915249018
 21
118.2377444295
 31
0.0
  0
LINE
  5
95
330
1F
100
AcDbEntity
  8
0
  6
Continuous
 62
     7
370
    25
100
AcDbLine
 10
468.0915249018
 20
118.2377444295
 30
0.0
 11
468.0915249018
 21
256.5400257406
 31
0.0
  0
LINE
  5
96
330
1F
100
AcDbEntity
  8
0
  6
Continuous
 62
     7
370
    25
100
AcDbLine
 10
308.0915249018
 20
118.2377444295
 30
0.0
 11
308.0915249018
 21
-41.4599742594
 31
0.0
  0
LINE
  5
97
330
1F
100
AcDbEntity
  8
0
  6
Continuous
 62
     7
370
    25
100
AcDbLine
 10
468.0915249018
 20
-41.4599742594
 30
0.0
 11
468.0915249018
 21
118.2377444295
 31
0.0
  0
LWPOLYLINE
  5
98
330
1F
100
AcDbEntity
  8
0
  6
Continuous
 62
     7
370
    25
100
AcDbPolyline
 90
       52
 70
   128
 43
0.0
 10
308.0915249018
 20
256.5400257406
 10
308.2432586029
 20
259.0024619859
 10
308.6978841281
 20
261.4555573671
 10
309.4536769271
 20
263.8900064532
 10
310.507770019
 20
266.2965745449
 10
311.8561648677
 20
268.6661327051
 10
313.4937465495
 20
270.989692388
 10
315.4143031563
 20
273.258439536
 10
317.610549359
 20
275.463768014
 10
320.0741540435
 20
277.5973122557
 10
322.7957719133
 20
279.6509789969
 10
325.7650789398
 20
281.6169779763
 10
328.9708115242
 20
283.4878514864
 10
332.4008092248
 20
285.2565026631
 10
336.0420608855
 20
286.9162224067
 10
339.8807539915
 20
288.4607148318
 10
343.902327065
 20
289.8841211494
 10
348.0915249018
 20
291.1810418919
 10
352.4324564397
 20
292.3465573948
 10
356.9086550384
 20
293.3762464584
 10
361.5031409435
 20
294.2662031194
 10
366.1984856961
 20
295.0130514675
 10
370.9768782453
 20
295.6139584509
 10
375.8201925115
 20
296.0666446238
 10
380.7100561448
 20
296.3693927924
 10
385.6279202173
 20
296.5210545291
 10
390.5551295863
 20
296.5210545291
 10
395.4729936589
 20
296.3693927924
 10
400.3628572921
 20
296.0666446238
 10
405.2061715584
 20
295.6139584509
 10
409.9845641076
 20
295.0130514675
 10
414.6799088602
 20
294.2662031194
 10
419.2743947652
 20
293.3762464584
 10
423.750593364
 20
292.3465573948
 10
428.0915249018
 20
291.1810418919
 10
432.2807227387
 20
289.8841211494
 10
436.3022958122
 20
288.4607148318
 10
440.1409889182
 20
286.9162224067
 10
443.7822405789
 20
285.2565026631
 10
447.2122382795
 20
283.4878514864
 10
450.4179708639
 20
281.6169779763
 10
453.3872778903
 20
279.6509789969
 10
456.1088957602
 20
277.5973122557
 10
458.5725004447
 20
275.463768014
 10
460.7687466474
 20
273.258439536
 10
462.6893032542
 20
270.989692388
 10
464.326884936
 20
268.6661327051
 10
465.6752797846
 20
266.2965745449
 10
466.7293728765
 20
263.8900064532
 10
467.4851656756
 20
261.4555573671
 10
467.9397912008
 20
259.0024619859
 10
468.0915249018
 20
256.5400257406
  0
ELLIPSE
  5
99
330
1F
100
AcDbEntity
  8
0
  6
Continuous
 62
     7
370
    25
100
AcDbEllipse
 10
388.0915249018
 20
118.2377444295
 30
0.0
 11
80.0
 21
0.0
 31
0.0
210
0.0
220
0.0
230
1.0
 40
0.2679491924
 41
1.570796326794897
 42
3.141592653589849
  0
ELLIPSE
  5
9A
330
1F
100
AcDbEntity
  8
0
  6
Continuous
 62
     7
370
    25
100
AcDbEllipse
 10
388.0915249018
 20
118.2377444295
 30
0.0
 11
80.0
 21
0.0
 31
0.0
210
0.0
220
0.0
230
1.0
 40
0.2679491924
 41
0.0
 42
1.570796326794897
  0
LINE
  5
9B
330
1F
100
AcDbEntity
  8
0
  6
Continuous
 62
     7
370
    25
100
AcDbLine
 10
308.0915249018
 20
-41.4599742594
 30
0.0
 11
468.0915249018
 21
-41.4599742594
 31
0.0
  0
LINE
  5
9C
330
1F
100
AcDbEntity
  8
0
  6
Continuous
 62
     7
370
    25
100
AcDbLine
 10
208.8573901908
 20
548.9603016884
 30
0.0
 11
129.0085308464
 21
548.9603016884
 31
0.0
  0
LINE
  5
9D
330
1F
100
AcDbEntity
  8
0
  6
Continuous
 62
     7
370
    25
100
AcDbLine
 10
129.0085308464
 20
388.9603016884
 30
0.0
 11
208.8573901908
 21
388.9603016884
 31
0.0
  0
CIRCLE
  5
9E
330
1F
100
AcDbEntity
  8
0
  6
Continuous
 62
     7
370
    25
100
AcDbCircle
 10
129.0085308464
 20
468.9603016884
 30
0.0
 40
79.99999999999994
  0
CIRCLE
  5
9F
330
1F
100
AcDbEntity
  8
0
  6
Continuous
 62
     7
370
    25
100
AcDbCircle
 10
129.0085308464
 20
468.9603016884
 30
0.0
 40
65.40000000000003
  0
LWPOLYLINE
  5
A0
330
1F
100
AcDbEntity
  8
0
  6
Continuous
 62
     7
370
    25
100
AcDbPolyline
 90
       53
 70
   128
 43
0.0
 10
208.8573901908
 20
548.9603016884
 10
213.1224548782
 20
548.8085679874
 10
217.3713407143
 20
548.3539424622
 10
221.5879302198
 20
547.5981496631
 10
225.7562284265
 20
546.5440565712
 10
229.8604235514
 20
545.1956617226
 10
233.8849469767
 20
543.5580800408
 10
237.8145323066
 20
541.637523434
 10
241.6342732778
 20
539.4412772313
 10
245.3296803045
 20
536.9776725468
 10
248.8867354422
 20
534.2560546769
 10
252.2919455622
 20
531.2867476505
 10
255.5323935362
 20
528.0810150661
 10
258.5957872351
 20
524.6510173655
 10
261.4705061574
 20
521.0097657048
 10
264.1456455094
 20
517.1710725988
 10
266.6110575714
 20
513.1494995253
 10
268.8573901908
 20
508.9603016884
 10
270.8761222588
 20
504.6193701505
 10
272.6595960329
 20
500.1431715518
 10
274.2010461864
 20
495.5486856468
 10
275.4946254708
 20
490.8533408942
 10
276.5354268968
 20
486.0749483449
 10
277.319502348
 20
481.2316340787
 10
277.8438775579
 20
476.3417704455
 10
278.1065633915
 20
471.4239063729
 10
278.1065633915
 20
466.4966970039
 10
277.8438775579
 20
461.5788329314
 10
277.319502348
 20
456.6889692981
 10
276.5354268968
 20
451.8456550319
 10
275.4946254708
 20
447.0672624827
 10
274.2010461864
 20
442.3719177301
 10
272.6595960329
 20
437.777431825
 10
270.8761222587
 20
433.3012332263
 10
268.8573901908
 20
428.9603016884
 10
266.6110575714
 20
424.7711038516
 10
264.1456455094
 20
420.7495307781
 10
261.4705061574
 20
416.9108376721
 10
258.5957872351
 20
413.2695860114
 10
255.5323935362
 20
409.8395883108
 10
252.2919455622
 20
406.6338557264
 10
248.8867354422
 20
403.6645486999
 10
245.3296803045
 20
400.9429308301
 10
241.6342732778
 20
398.4793261456
 10
237.8145323066
 20
396.2830799429
 10
233.8849469767
 20
394.3625233361
 10
229.8604235514
 20
392.7249416543
 10
225.7562284265
 20
391.3765468056
 10
221.5879302198
 20
390.3224537137
 10
217.3713407143
 20
389.5666609147
 10
213.1224548782
 20
389.1120353895
 10
208.8573901908
 20
388.9603016884
 10
208.8573901908
 20
388.9603016884
  0
LWPOLYLINE
  5
A1
330
1F
100
AcDbEntity
  8
0
  6
Continuous
 62
     7
370
    25
100
AcDbPolyline
 90
       27
 70
   128
 43
0.0
 10
171.7994056022
 20
518.4183752218
 10
170.1989033513
 20
516.7569737522
 10
167.4642579673
 20
513.5992772549
 10
164.9226064734
 20
510.2334532473
 10
162.5857992224
 20
506.6751947547
 10
160.4647314884
 20
502.9410920207
 10
158.5692926682
 20
499.048555156
 10
156.9083201725
 20
495.0157329644
 10
155.489558222
 20
490.8614283244
 10
154.3196217397
 20
486.6050105221
 10
153.4039655096
 20
482.2663249421
 10
152.7468587437
 20
477.8656005393
 10
152.3513651771
 20
473.4233555225
 10
152.2193287833
 20
468.9603016884
 10
152.3513651771
 20
464.4972478544
 10
152.7468587437
 20
460.0550028375
 10
153.4039655096
 20
455.6542784348
 10
154.3196217397
 20
451.3155928548
 10
155.489558222
 20
447.0591750524
 10
156.9083201725
 20
442.9048704125
 10
158.5692926682
 20
438.8720482208
 10
160.4647314884
 20
434.9795113561
 10
162.5857992224
 20
431.2454086221
 10
164.9226064734
 20
427.6871501295
 10
167.4642579673
 20
424.3213261219
 10
170.1989033513
 20
421.1636296246
 10
171.7994056022
 20
419.502228155
  0
INSERT
  5
AD
330
1F
100
AcDbEntity
  8
FORMAT
 62
     7
100
AcDbBlockReference
  2
SW_CENTERMARKSYMBOL_0
 10
129.0085308464
 20
468.9603016884
 30
0.0
  0
LINE
  5
AE
330
1F
100
AcDbEntity
  8
0
  6
Continuous
 62
     7
370
    25
100
AcDbLine
 10
208.8573901908
 20
-184.005516698
 30
0.0
 11
129.0085308464
 21
-184.005516698
 31
0.0
  0
LINE
  5
AF
330
1F
100
AcDbEntity
  8
0
  6
Continuous
 62
     7
370
    25
100
AcDbLine
 10
129.0085308464
 20
-344.005516698
 30
0.0
 11
208.8573901908
 21
-344.005516698
 31
0.0
  0
LWPOLYLINE
  5
B0
330
1F
100
AcDbEntity
  8
0
  6
Continuous
 62
     7
370
    25
100
AcDbPolyline
 90
      103
 70
   128
 43
0.0
 10
208.8573901908
 20
-344.005516698
 10
213.1224548782
 20
-343.853782997
 10
217.3713407143
 20
-343.3991574718
 10
221.5879302198
 20
-342.6433646727
 10
225.7562284265
 20
-341.5892715808
 10
229.8604235514
 20
-340.2408767322
 10
233.8849469767
 20
-338.6032950504
 10
237.8145323066
 20
-336.6827384436
 10
241.6342732778
 20
-334.4864922409
 10
245.3296803045
 20
-332.0228875564
 10
248.8867354422
 20
-329.3012696865
 10
252.2919455622
 20
-326.3319626601
 10
255.5323935362
 20
-323.1262300757
 10
258.5957872351
 20
-319.696232375
 10
261.4705061574
 20
-316.0549807144
 10
264.1456455094
 20
-312.2162876084
 10
266.6110575714
 20
-308.1947145349
 10
268.8573901908
 20
-304.005516698
 10
270.8761222588
 20
-299.6645851601
 10
272.6595960329
 20
-295.1883865614
 10
274.2010461864
 20
-290.5939006564
 10
275.4946254708
 20
-285.8985559038
 10
276.5354268968
 20
-281.1201633545
 10
277.319502348
 20
-276.2768490883
 10
277.8438775579
 20
-271.3869854551
 10
278.1065633915
 20
-266.4691213825
 10
278.1065633915
 20
-261.5419120135
 10
277.8438775579
 20
-256.624047941
 10
277.319502348
 20
-251.7341843077
 10
276.5354268968
 20
-246.8908700415
 10
275.4946254708
 20
-242.1124774922
 10
274.2010461864
 20
-237.4171327396
 10
272.6595960329
 20
-232.8226468346
 10
270.8761222587
 20
-228.3464482359
 10
268.8573901908
 20
-224.005516698
 10
266.6110575714
 20
-219.8163188612
 10
264.1456455094
 20
-215.7947457877
 10
261.4705061574
 20
-211.9560526817
 10
258.5957872351
 20
-208.314801021
 10
255.5323935362
 20
-204.8848033204
 10
252.2919455622
 20
-201.679070736
 10
248.8867354422
 20
-198.7097637095
 10
245.3296803045
 20
-195.9881458396
 10
241.6342732778
 20
-193.5245411552
 10
237.8145323066
 20
-191.3282949525
 10
233.8849469767
 20
-189.4077383457
 10
229.8604235514
 20
-187.7701566638
 10
225.7562284265
 20
-186.4217618152
 10
221.5879302198
 20
-185.3676687233
 10
217.3713407143
 20
-184.6118759243
 10
213.1224548782
 20
-184.1572503991
 10
208.8573901908
 20
-184.005516698
 10
204.5923255035
 20
-184.1572503991
 10
200.3434396674
 20
-184.6118759243
 10
196.1268501619
 20
-185.3676687233
 10
191.9585519552
 20
-186.4217618152
 10
187.8543568303
 20
-187.7701566638
 10
183.829833405
 20
-189.4077383457
 10
179.9002480751
 20
-191.3282949525
 10
176.0805071039
 20
-193.5245411552
 10
172.3851000772
 20
-195.9881458396
 10
168.8280449395
 20
-198.7097637095
 10
165.4228348195
 20
-201.679070736
 10
162.1823868455
 20
-204.8848033204
 10
159.1189931466
 20
-208.314801021
 10
156.2442742243
 20
-211.9560526817
 10
153.5691348723
 20
-215.7947457877
 10
151.1037228103
 20
-219.8163188612
 10
148.8573901908
 20
-224.005516698
 10
146.8386581229
 20
-228.3464482359
 10
145.0551843488
 20
-232.8226468346
 10
143.5137341953
 20
-237.4171327396
 10
142.2201549109
 20
-242.1124774922
 10
141.1793534849
 20
-246.8908700415
 10
140.3952780336
 20
-251.7341843077
 10
139.8709028238
 20
-256.624047941
 10
139.6082169902
 20
-261.5419120135
 10
139.6082169902
 20
-266.4691213825
 10
139.8709028238
 20
-271.3869854551
 10
140.3952780336
 20
-276.2768490883
 10
141.1793534849
 20
-281.1201633545
 10
142.2201549109
 20
-285.8985559038
 10
143.5137341953
 20
-290.5939006564
 10
145.0551843488
 20
-295.1883865614
 10
146.8386581229
 20
-299.6645851601
 10
148.8573901908
 20
-304.005516698
 10
151.1037228103
 20
-308.1947145349
 10
153.5691348723
 20
-312.2162876084
 10
156.2442742243
 20
-316.0549807144
 10
159.1189931466
 20
-319.6962323751
 10
162.1823868455
 20
-323.1262300757
 10
165.4228348195
 20
-326.3319626601
 10
168.8280449395
 20
-329.3012696865
 10
172.3851000772
 20
-332.0228875564
 10
176.0805071039
 20
-334.4864922409
 10
179.9002480751
 20
-336.6827384436
 10
183.829833405
 20
-338.6032950504
 10
187.8543568303
 20
-340.2408767322
 10
191.9585519552
 20
-341.5892715808
 10
196.1268501619
 20
-342.6433646727
 10
200.3434396674
 20
-343.3991574718
 10
204.5923255035
 20
-343.853782997
 10
208.8573901908
 20
-344.005516698
  0
ARC
  5
B1
330
1F
100
AcDbEntity
  8
0
  6
Continuous
 62
     7
370
    25
100
AcDbCircle
 10
129.0085308464
 20
-264.005516698
 30
0.0
 40
80.0
100
AcDbArc
 50
90.0
 51
180.0
  0
ARC
  5
B2
330
1F
100
AcDbEntity
  8
0
  6
Continuous
 62
     7
370
    25
100
AcDbCircle
 10
129.0085308464
 20
-264.005516698
 30
0.0
 40
80.0
100
AcDbArc
 50
180.0
 51
270.0
  0
LWPOLYLINE
  5
B3
330
1F
100
AcDbEntity
  8
0
  6
Continuous
 62
     7
370
    25
100
AcDbPolyline
 90
       93
 70
   128
 43
0.0
 10
208.8573901908
 20
-329.405516698
 10
204.9922721921
 20
-329.2530542031
 10
201.1451751577
 20
-328.7963775688
 10
197.3340360298
 20
-328.0376160324
 10
193.5766240985
 20
-326.9803072906
 10
189.8904581526
 20
-325.6293810046
 10
186.2927247993
 20
-323.9911358165
 10
182.8001983324
 20
-322.0732099815
 10
179.4291625224
 20
-319.8845457554
 10
176.1953346944
 20
-317.4353477009
 10
173.1137924466
 20
-314.7370351101
 10
170.1989033513
 20
-311.8021887618
 10
167.4642579673
 20
-308.6444922645
 10
164.9226064734
 20
-305.2786682569
 10
162.5857992224
 20
-301.7204097643
 10
160.4647314884
 20
-297.9863070303
 10
158.5692926682
 20
-294.0937701656
 10
156.9083201725
 20
-290.060947974
 10
155.489558222
 20
-285.906643334
 10
154.3196217397
 20
-281.6502255317
 10
153.4039655096
 20
-277.3115399517
 10
152.7468587437
 20
-272.9108155489
 10
152.3513651771
 20
-268.4685705321
 10
152.2193287833
 20
-264.005516698
 10
152.3513651771
 20
-259.542462864
 10
152.7468587437
 20
-255.1002178471
 10
153.4039655096
 20
-250.6994934444
 10
154.3196217397
 20
-246.3608078643
 10
155.489558222
 20
-242.104390062
 10
156.9083201725
 20
-237.9500854221
 10
158.5692926682
 20
-233.9172632304
 10
160.4647314884
 20
-230.0247263657
 10
162.5857992224
 20
-226.2906236317
 10
164.9226064734
 20
-222.7323651391
 10
167.4642579673
 20
-219.3665411315
 10
170.1989033513
 20
-216.2088446342
 10
173.1137924466
 20
-213.2739982859
 10
176.1953346944
 20
-210.5756856951
 10
179.4291625224
 20
-208.1264876407
 10
182.8001983324
 20
-205.9378234145
 10
186.2927247993
 20
-204.0198975796
 10
189.8904581526
 20
-202.3816523914
 10
193.5766240985
 20
-201.0307261055
 10
197.3340360298
 20
-199.9734173636
 10
201.1451751577
 20
-199.2146558272
 10
204.9922721921
 20
-198.757979193
 10
208.8573901908
 20
-198.605516698
 10
212.7225081896
 20
-198.757979193
 10
216.569605224
 20
-199.2146558272
 10
220.3807443518
 20
-199.9734173636
 10
224.1381562832
 20
-201.0307261055
 10
227.8243222291
 20
-202.3816523914
 10
231.4220555824
 20
-204.0198975796
 10
234.9145820493
 20
-205.9378234145
 10
238.2856178593
 20
-208.1264876407
 10
241.5194456873
 20
-210.5756856951
 10
244.6009879351
 20
-213.2739982859
 10
247.5158770304
 20
-216.2088446342
 10
250.2505224144
 20
-219.3665411315
 10
252.7921739083
 20
-222.7323651391
 10
255.1289811593
 20
-226.2906236317
 10
257.2500488933
 20
-230.0247263657
 10
259.1454877135
 20
-233.9172632304
 10
260.8064602092
 20
-237.9500854221
 10
262.2252221597
 20
-242.104390062
 10
263.395158642
 20
-246.3608078643
 10
264.3108148721
 20
-250.6994934444
 10
264.967921638
 20
-255.1002178471
 10
265.3634152046
 20
-259.542462864
 10
265.4954515984
 20
-264.005516698
 10
265.3634152046
 20
-268.4685705321
 10
264.967921638
 20
-272.9108155489
 10
264.3108148721
 20
-277.3115399517
 10
263.395158642
 20
-281.6502255317
 10
262.2252221597
 20
-285.906643334
 10
260.8064602092
 20
-290.060947974
 10
259.1454877135
 20
-294.0937701656
 10
257.2500488933
 20
-297.9863070303
 10
255.1289811593
 20
-301.7204097643
 10
252.7921739083
 20
-305.2786682569
 10
250.2505224144
 20
-308.6444922645
 10
247.5158770303
 20
-311.8021887618
 10
244.6009879351
 20
-314.7370351101
 10
241.5194456873
 20
-317.4353477009
 10
238.2856178593
 20
-319.8845457554
 10
234.9145820493
 20
-322.0732099815
 10
231.4220555824
 20
-323.9911358165
 10
227.8243222291
 20
-325.6293810046
 10
224.1381562832
 20
-326.9803072906
 10
220.3807443518
 20
-328.0376160324
 10
216.569605224
 20
-328.7963775688
 10
212.7225081896
 20
-329.2530542031
 10
208.8573901908
 20
-329.405516698
  0
ARC
  5
B4
330
1F
100
AcDbEntity
  8
0
  6
Continuous
 62
     7
370
    25
100
AcDbCircle
 10
129.0085308464
 20
-264.005516698
 30
0.0
 40
65.4
100
AcDbArc
 50
310.8661935807
 51
49.1338064193
  0
LINE
  5
B5
330
1F
100
AcDbEntity
  8
0
  6
Continuous
 62
     7
370
    25
100
AcDbLine
 10
299.1650579911
 20
-270.9338804918
 30
0.0
 11
299.1650579911
 21
-413.7102988673
 31
0.0
  0
LINE
  5
B6
330
1F
100
AcDbEntity
  8
0
  6
Continuous
 62
     7
370
    25
100
AcDbLine
 10
459.1650579911
 20
-413.7102988673
 30
0.0
 11
459.1650579911
 21
-295.6873074936
 31
0.0
  0
LINE
  5
B7
330
1F
100
AcDbEntity
  8
0
  6
Continuous
 62
     7
370
    25
100
AcDbLine
 10
361.0436920708
 20
-108.8491493343
 30
0.0
 11
300.105154582
 21
-265.9118954776
 31
0.0
  0
LINE
  5
B8
330
1F
100
AcDbEntity
  8
0
  6
Continuous
 62
     7
370
    25
100
AcDbLine
 10
459.1650579911
 20
-298.2862912629
 30
0.0
 11
510.2097637365
 21
-166.7238680277
 31
0.0
  0
LWPOLYLINE
  5
B9
330
1F
100
AcDbEntity
  8
0
  6
Continuous
 62
     7
370
    25
100
AcDbPolyline
 90
      103
 70
   128
 43
0.0
 10
322.5965154962
 20
-381.0539743944
 10
326.1862181598
 20
-379.105559781
 10
329.9768877095
 20
-377.288412796
 10
333.9541448373
 20
-375.6094265003
 10
338.1029024446
 20
-374.0749698641
 10
342.4074228728
 20
-372.6908636068
 10
346.8513776014
 20
-371.4623581178
 10
351.417909188
 20
-370.394113539
 10
356.0896952141
 20
-369.490182088
 10
360.8490139951
 20
-368.7539926866
 10
365.6778118048
 20
-368.1883379532
 10
370.5577713589
 20
-367.79536361
 10
375.4703812995
 20
-367.5765603433
 10
380.3970064143
 20
-367.5327581488
 10
385.3189583267
 20
-367.6641231832
 10
390.2175663873
 20
-367.9701571341
 10
395.0742484978
 20
-368.4496991097
 10
399.8705815993
 20
-369.1009300431
 10
404.5883715577
 20
-369.9213795923
 10
409.2097221795
 20
-370.9079355112
 10
413.717103099
 20
-372.0568554552
 10
418.0934162765
 20
-373.3637811775
 10
422.322060857
 20
-374.823755061
 10
426.3869961432
 20
-376.4312389249
 10
430.2728024433
 20
-378.1801350322
 10
433.9647395629
 20
-380.0638092209
 10
437.4488027201
 20
-382.0751160697
 10
440.7117756698
 20
-384.2064260027
 10
443.741280838
 20
-386.4496542312
 10
446.5258262739
 20
-388.7962914224
 10
449.0548492429
 20
-391.2374359775
 10
451.3187562946
 20
-393.7638277991
 10
453.3089596541
 20
-396.3658834176
 10
455.0179097984
 20
-399.0337323448
 10
456.4391240943
 20
-401.757254516
 10
457.567211389
 20
-404.5261186786
 10
458.3978924612
 20
-407.3298215825
 10
458.9280162529
 20
-410.1577278222
 10
459.155571823
 20
-412.9991101807
 10
459.0796959753
 20
-415.8431903215
 10
458.700676533
 20
-418.6791796745
 10
458.0199512465
 20
-421.4963203606
 10
457.04010234
 20
-424.2839260002
 10
455.7648467161
 20
-427.0314222504
 10
454.1990218561
 20
-429.7283869168
 10
452.3485674702
 20
-432.3645894886
 10
450.2205029655
 20
-434.9300299464
 10
447.8229008197
 20
-437.414976696
 10
445.164855959
 20
-439.8100034832
 10
442.2564512579
 20
-442.1060251508
 10
439.1087192918
 20
-444.2943321025
 10
435.7336004861
 20
-446.3666233402
 10
432.1438978225
 20
-448.3150379536
 10
428.3532282728
 20
-450.1321849386
 10
424.3759711449
 20
-451.8111712343
 10
420.2272135376
 20
-453.3456278705
 10
415.9226931095
 20
-454.7297341278
 10
411.4787383809
 20
-455.9582396168
 10
406.9122067943
 20
-457.0264841956
 10
402.2404207682
 20
-457.9304156466
 10
397.4811019872
 20
-458.666605048
 10
392.6523041775
 20
-459.2322597814
 10
387.7723446234
 20
-459.6252341246
 10
382.8597346828
 20
-459.8440373913
 10
377.933109568
 20
-459.8878395858
 10
373.0111576556
 20
-459.7564745514
 10
368.112549595
 20
-459.4504406005
 10
363.2558674845
 20
-458.9708986249
 10
358.4595343829
 20
-458.3196676915
 10
353.7417444246
 20
-457.4992181423
 10
349.1203938027
 20
-456.5126622234
 10
344.6130128832
 20
-455.3637422794
 10
340.2366997058
 20
-454.0568165571
 10
336.0080551253
 20
-452.5968426736
 10
331.9431198391
 20
-450.9893588097
 10
328.057313539
 20
-449.2404627024
 10
324.3653764193
 20
-447.3567885136
 10
320.8813132622
 20
-445.3454816649
 10
317.6183403125
 20
-443.2141717319
 10
314.5888351443
 20
-440.9709435034
 10
311.8042897084
 20
-438.6243063122
 10
309.2752667394
 20
-436.1831617571
 10
307.0113596877
 20
-433.6567699355
 10
305.0211563282
 20
-431.054714317
 10
303.3122061839
 20
-428.3868653898
 10
301.890991888
 20
-425.6633432186
 10
300.7629045933
 20
-422.894479056
 10
299.9322235211
 20
-420.0907761521
 10
299.4020997294
 20
-417.2628699124
 10
299.1745441593
 20
-414.4214875539
 10
299.250420007
 20
-411.5774074131
 10
299.6294394493
 20
-408.7414180601
 10
300.3101647358
 20
-405.924277374
 10
301.2900136423
 20
-403.1366717344
 10
302.5652692662
 20
-400.3891754842
 10
304.1310941261
 20
-397.6922108178
 10
305.9815485121
 20
-395.056008246
 10
308.1096130168
 20
-392.4905677882
 10
310.5072151626
 20
-390.0056210386
 10
313.1652600233
 20
-387.6105942514
 10
316.0736647243
 20
-385.3145725838
 10
319.2213966905
 20
-383.1262656321
 10
322.5965154962
 20
-381.0539743944
  0
LWPOLYLINE
  5
BA
330
1F
100
AcDbEntity
  8
0
  6
Continuous
 62
     7
370
    25
100
AcDbPolyline
 90
       93
 70
   128
 43
0.0
 10
332.9202745015
 20
-387.0137536107
 10
329.8722261347
 20
-388.8978260963
 10
327.0540037045
 20
-390.8975857839
 10
324.4787470649
 20
-393.0037088707
 10
322.158463251
 20
-395.2063756385
 10
320.1039704971
 20
-397.4953162383
 10
318.3248477968
 20
-399.8598585722
 10
316.8293902415
 20
-402.2889780523
 10
315.6245703445
 20
-404.7713490024
 10
314.7160055324
 20
-407.2953974632
 10
314.1079319538
 20
-409.8493551555
 10
313.8031847284
 20
-412.4213143498
 10
313.8031847284
 20
-414.9992833848
 10
314.1079319538
 20
-417.5712425791
 10
314.7160055324
 20
-420.1252002714
 10
315.6245703445
 20
-422.6492487322
 10
316.8293902415
 20
-425.1316196823
 10
318.3248477968
 20
-427.5607391624
 10
320.1039704971
 20
-429.9252814963
 10
322.158463251
 20
-432.2142220961
 10
324.4787470649
 20
-434.4168888639
 10
327.0540037045
 20
-436.5230119507
 10
329.8722261347
 20
-438.5227716383
 10
332.9202745015
 20
-440.4068441239
 10
336.1839373964
 20
-442.1664449919
 10
339.6479981165
 20
-443.7933701708
 10
343.2963056114
 20
-445.2800341843
 10
347.1118497877
 20
-446.6195055186
 10
351.076840817
 20
-447.80553894
 10
355.1727920808
 20
-448.8326046132
 10
359.3806063635
 20
-449.6959138838
 10
363.6806648926
 20
-450.3914416056
 10
368.0529188103
 20
-450.9159449073
 10
372.4769826503
 20
-451.2669783122
 10
376.932229385
 20
-451.4429051408
 10
381.3978865973
 20
-451.4429051408
 10
385.853133332
 20
-451.2669783122
 10
390.277197172
 20
-450.9159449073
 10
394.6494510896
 20
-450.3914416056
 10
398.9495096188
 20
-449.6959138838
 10
403.1573239015
 20
-448.8326046132
 10
407.2532751653
 20
-447.80553894
 10
411.2182661946
 20
-446.6195055186
 10
415.0338103708
 20
-445.2800341843
 10
418.6821178658
 20
-443.7933701708
 10
422.1461785858
 20
-442.1664449919
 10
425.4098414807
 20
-440.4068441239
 10
428.4578898476
 20
-438.5227716383
 10
431.2761122777
 20
-436.5230119507
 10
433.8513689174
 20
-434.4168888639
 10
436.1716527313
 20
-432.2142220961
 10
438.2261454852
 20
-429.9252814963
 10
440.0052681854
 20
-427.5607391624
 10
441.5007257408
 20
-425.1316196823
 10
442.7055456378
 20
-422.6492487322
 10
443.6141104498
 20
-420.1252002714
 10
444.2221840285
 20
-417.5712425791
 10
444.5269312539
 20
-414.9992833848
 10
444.5269312539
 20
-412.4213143498
 10
444.2221840285
 20
-409.8493551555
 10
443.6141104498
 20
-407.2953974632
 10
442.7055456378
 20
-404.7713490024
 10
441.5007257408
 20
-402.2889780523
 10
440.0052681854
 20
-399.8598585722
 10
438.2261454852
 20
-397.4953162383
 10
436.1716527313
 20
-395.2063756385
 10
433.8513689174
 20
-393.0037088707
 10
431.2761122777
 20
-390.8975857839
 10
428.4578898476
 20
-388.8978260963
 10
425.4098414807
 20
-387.0137536107
 10
422.1461785858
 20
-385.2541527427
 10
418.6821178658
 20
-383.6272275638
 10
415.0338103708
 20
-382.1405635503
 10
411.2182661946
 20
-380.801092216
 10
407.2532751653
 20
-379.6150587946
 10
403.1573239015
 20
-378.5879931214
 10
398.9495096188
 20
-377.7246838508
 10
394.6494510896
 20
-377.029156129
 10
390.277197172
 20
-376.5046528273
 10
385.8531333319
 20
-376.1536194224
 10
381.3978865973
 20
-375.9776925938
 10
376.932229385
 20
-375.9776925938
 10
372.4769826503
 20
-376.1536194224
 10
368.0529188103
 20
-376.5046528273
 10
363.6806648926
 20
-377.029156129
 10
359.3806063635
 20
-377.7246838508
 10
355.1727920808
 20
-378.5879931214
 10
351.076840817
 20
-379.6150587946
 10
347.1118497877
 20
-380.801092216
 10
343.2963056114
 20
-382.1405635503
 10
339.6479981165
 20
-383.6272275638
 10
336.1839373964
 20
-385.2541527427
 10
332.9202745015
 20
-387.0137536107
  0
ELLIPSE
  5
BB
330
1F
100
AcDbEntity
  8
0
  6
Continuous
 62
     7
370
    25
100
AcDbEllipse
 10
379.1650579911
 20
-283.3105939927
 30
0.0
 11
79.76462960715043
 21
-14.93163682329794
 31
0.0
210
0.0
220
0.0
230
1.0
 40
0.4106849769
 41
0.0767277489784235
 42
3.218320402568243
  0
LWPOLYLINE
  5
BC
330
1F
100
AcDbEntity
  8
0
  6
Continuous
 62
     7
370
    25
100
AcDbPolyline
 90
       42
 70
   128
 43
0.0
 10
379.0581854087
 20
-105.1301842081
 10
382.1813335003
 20
-105.4617855072
 10
385.5072182792
 20
-105.9160055533
 10
389.0232235255
 20
-106.4911213343
 10
392.7160118267
 20
-107.184951239
 10
396.571575172
 20
-107.9948633328
 10
400.5752880891
 20
-108.9177853419
 10
404.7119631234
 20
-109.9502163069
 10
408.9659084496
 20
-111.0882398635
 10
413.320987396
 20
-112.3275390986
 10
417.7606796564
 20
-113.6634129257
 10
422.2681439575
 20
-115.0907939177
 10
426.8262819431
 20
-116.6042675297
 10
431.4178030346
 20
-118.1980926379
 10
436.0252900198
 20
-119.8662233177
 10
440.6312651224
 20
-121.602331778
 10
445.2182563012
 20
-123.3998323648
 10
449.7688635274
 20
-125.2519065427
 10
454.2658247891
 20
-127.1515287599
 10
458.6920815719
 20
-129.0914930987
 10
463.0308435678
 20
-131.0644406099
 10
467.2656523664
 20
-133.0628872278
 10
471.3804438873
 20
-135.0792521598
 10
475.359609317
 20
-137.1058866431
 10
479.1880543179
 20
-139.1351029589
 10
482.8512562868
 20
-141.1592035947
 10
486.3353194439
 20
-143.1705104434
 10
489.6270275443
 20
-145.1613939293
 10
492.7138940117
 20
-147.1243019494
 10
495.5842093042
 20
-149.0517885212
 10
498.2270853328
 20
-150.9365420278
 10
500.6324967633
 20
-152.7714129538
 10
502.7913190465
 20
-154.5494410051
 10
504.6953630298
 20
-156.2638815124
 10
506.3374060223
 20
-157.9082310156
 10
507.7112191924
 20
-159.4762519337
 10
508.8115911963
 20
-160.9619962264
 10
509.634347946
 20
-162.3598279567
 10
510.1763684434
 20
-163.6644446699
 10
510.435596619
 20
-164.870897508
 10
510.4110491315
 20
-165.9746099822
 10
510.2097637365
 20
-166.7238680277
  0
LWPOLYLINE
  5
BD
330
1F
100
AcDbEntity
  8
0
  6
Continuous
 62
     7
370
    25
100
AcDbPolyline
 90
       12
 70
   128
 43
0.0
 10
361.0436920708
 20
-108.8491493343
 10
361.1506367091
 20
-108.601622029
 10
361.7413800664
 20
-107.7155449499
 10
362.6123958557
 20
-106.9435373362
 10
363.7603800157
 20
-106.2885276774
 10
365.1809778494
 20
-105.7530006494
 10
366.8688005425
 20
-105.3389876896
 10
368.8174456055
 20
-105.0480592911
 10
371.0195211601
 20
-104.8813190449
 10
373.4666739796
 20
-104.8393994539
 10
376.149621175
 20
-104.9224595334
 10
379.0581854087
 20
-105.1301842081
  0
ENDSEC
  0
SECTION
  2
OBJECTS
  0
DICTIONARY
  5
C
330
0
100
AcDbDictionary
281
     1
  3
ACAD_GROUP
350
D
  3
ACAD_LAYOUT
350
1A
  3
ACAD_MLINESTYLE
350
17
  3
ACAD_PLOTSETTINGS
350
19
  3
ACAD_PLOTSTYLENAME
350
E
  3
ACAD_SCALELIST
350
47
  3
DWGPROPS
350
BE
  0
DICTIONARY
  5
D
102
{ACAD_REACTORS
330
C
102
}
330
C
100
AcDbDictionary
281
     1
  0
DICTIONARY
  5
1A
102
{ACAD_REACTORS
330
C
102
}
330
C
100
AcDbDictionary
281
     1
  3
Layout1
350
1E
  3
Layout2
350
26
  3
Model
350
22
  0
DICTIONARY
  5
17
102
{ACAD_REACTORS
330
C
102
}
330
C
100
AcDbDictionary
281
     1
  3
Standard
350
18
  0
DICTIONARY
  5
19
102
{ACAD_REACTORS
330
C
102
}
330
C
100
AcDbDictionary
281
     1
  0
ACDBDICTIONARYWDFLT
  5
E
102
{ACAD_REACTORS
330
C
102
}
330
C
100
AcDbDictionary
281
     1
  3
Normal
350
F
100
AcDbDictionaryWithDefault
340
F
  0
DICTIONARY
  5
47
102
{ACAD_REACTORS
330
C
102
}
330
C
100
AcDbDictionary
281
     1
  3
A0
350
48
  3
A1
350
49
  3
A2
350
4A
  3
A3
350
4B
  3
A4
350
4C
  3
A5
350
4D
  3
A6
350
4E
  3
A7
350
4F
  3
A8
350
50
  3
A9
350
51
  3
B0
350
52
  3
B1
350
53
  3
B2
350
54
  3
B3
350
55
  3
B4
350
56
  3
B5
350
57
  3
B6
350
58
  3
B7
350
59
  3
B8
350
5A
  3
B9
350
5B
  3
C0
350
5C
  3
C1
350
5D
  3
C2
350
5E
  3
C3
350
5F
  3
C4
350
60
  3
C5
350
61
  3
C6
350
62
  3
C7
350
63
  3
C8
350
64
  3
C9
350
65
  3
D0
350
66
  3
D1
350
67
  3
D2
350
68
  0
XRECORD
  5
BE
102
{ACAD_REACTORS
330
C
102
}
330
C
100
AcDbXrecord
280
     1
  1
DWGPROPS COOKIE
  2

  3

  4

  6

  7

  8
b.kav
  9

300
=
301
=
302
=
303
=
304
=
305
=
306
=
307
=
308
=
309
=
 40
0.0
 41
2460682.394561482
 42
2460682.394561482
  1

 90
        0
  0
LAYOUT
  5
1E
102
{ACAD_REACTORS
330
1A
102
}
330
1A
100
AcDbPlotSettings
  1

  2
none_device
  4

  6

 40
0.0
 41
0.0
 42
0.0
 43
0.0
 44
0.0
 45
0.0
 46
0.0
 47
0.0
 48
0.0
 49
0.0
140
0.0
141
0.0
142
1.0
143
1.0
 70
   688
 72
     1
 73
     0
 74
     5
  7

 75
    16
147
1.0
148
0.0
149
0.0
100
AcDbLayout
  1
Layout1
 70
     1
 71
     1
 10
0.0
 20
0.0
 11
420.0
 21
297.0
 12
0.0
 22
0.0
 32
0.0
 14
1.0000000000E+20
 24
1.0000000000E+20
 34
1.0000000000E+20
 15
-1.0000000000E+20
 25
-1.0000000000E+20
 35
-1.0000000000E+20
146
0.0
 13
0.0
 23
0.0
 33
0.0
 16
1.0
 26
0.0
 36
0.0
 17
0.0
 27
1.0
 37
0.0
 76
     0
330
1B
  0
LAYOUT
  5
26
102
{ACAD_REACTORS
330
1A
102
}
330
1A
100
AcDbPlotSettings
  1

  2
none_device
  4

  6

 40
0.0
 41
0.0
 42
0.0
 43
0.0
 44
0.0
 45
0.0
 46
0.0
 47
0.0
 48
0.0
 49
0.0
140
0.0
141
0.0
142
1.0
143
1.0
 70
   688
 72
     1
 73
     0
 74
     5
  7

 75
    16
147
1.0
148
0.0
149
0.0
100
AcDbLayout
  1
Layout2
 70
     1
 71
     2
 10
0.0
 20
0.0
 11
0.0
 21
0.0
 12
0.0
 22
0.0
 32
0.0
 14
0.0
 24
0.0
 34
0.0
 15
0.0
 25
0.0
 35
0.0
146
0.0
 13
0.0
 23
0.0
 33
0.0
 16
1.0
 26
0.0
 36
0.0
 17
0.0
 27
1.0
 37
0.0
 76
     0
330
23
  0
LAYOUT
  5
22
102
{ACAD_REACTORS
330
1A
102
}
330
1A
100
AcDbPlotSettings
  1

  2
none_device
  4
Letter_(8.50_x_11.00_Inches)
  6

 40
6.35
 41
6.35
 42
6.35000508
 43
6.35000508
 44
215.9
 45
279.4
 46
0.0
 47
0.0
 48
0.0
 49
0.0
140
0.0
141
0.0
142
1.0
143
1.0
 70
  1712
 72
     1
 73
     0
 74
     0
  7

 75
     0
147
1.0
148
0.0
149
0.0
100
AcDbLayout
  1
Model
 70
     1
 71
     0
 10
0.0
 20
0.0
 11
279.4
 21
215.9
 12
0.0
 22
0.0
 32
0.0
 14
0.0
 24
0.0
 34
0.0
 15
279.4
 25
215.9
 35
0.0
146
0.0
 13
0.0
 23
0.0
 33
0.0
 16
1.0
 26
0.0
 36
0.0
 17
0.0
 27
1.0
 37
0.0
 76
     0
330
1F
331
29
  0
MLINESTYLE
  5
18
102
{ACAD_REACTORS
330
17
102
}
330
17
100
AcDbMlineStyle
  2
Standard
 70
     0
  3

 62
   256
 51
90.0
 52
90.0
 71
     2
 49
0.5
 62
   256
  6
BYLAYER
 49
-0.5
 62
   256
  6
BYLAYER
  0
ACDBPLACEHOLDER
  5
F
102
{ACAD_REACTORS
330
E
102
}
330
E
  0
SCALE
  5
48
102
{ACAD_REACTORS
330
47
102
}
330
47
100
AcDbScale
 70
     0
300
1:1
140
1.0
141
1.0
290
     1
  0
SCALE
  5
49
102
{ACAD_REACTORS
330
47
102
}
330
47
100
AcDbScale
 70
     0
300
1:2
140
1.0
141
2.0
290
     0
  0
SCALE
  5
4A
102
{ACAD_REACTORS
330
47
102
}
330
47
100
AcDbScale
 70
     0
300
1:4
140
1.0
141
4.0
290
     0
  0
SCALE
  5
4B
102
{ACAD_REACTORS
330
47
102
}
330
47
100
AcDbScale
 70
     0
300
1:5
140
1.0
141
5.0
290
     0
  0
SCALE
  5
4C
102
{ACAD_REACTORS
330
47
102
}
330
47
100
AcDbScale
 70
     0
300
1:8
140
1.0
141
8.0
290
     0
  0
SCALE
  5
4D
102
{ACAD_REACTORS
330
47
102
}
330
47
100
AcDbScale
 70
     0
300
1:10
140
1.0
141
10.0
290
     0
  0
SCALE
  5
4E
102
{ACAD_REACTORS
330
47
102
}
330
47
100
AcDbScale
 70
     0
300
1:16
140
1.0
141
16.0
290
     0
  0
SCALE
  5
4F
102
{ACAD_REACTORS
330
47
102
}
330
47
100
AcDbScale
 70
     0
300
1:20
140
1.0
141
20.0
290
     0
  0
SCALE
  5
50
102
{ACAD_REACTORS
330
47
102
}
330
47
100
AcDbScale
 70
     0
300
1:30
140
1.0
141
30.0
290
     0
  0
SCALE
  5
51
102
{ACAD_REACTORS
330
47
102
}
330
47
100
AcDbScale
 70
     0
300
1:40
140
1.0
141
40.0
290
     0
  0
SCALE
  5
52
102
{ACAD_REACTORS
330
47
102
}
330
47
100
AcDbScale
 70
     0
300
1:50
140
1.0
141
50.0
290
     0
  0
SCALE
  5
53
102
{ACAD_REACTORS
330
47
102
}
330
47
100
AcDbScale
 70
     0
300
1:100
140
1.0
141
100.0
290
     0
  0
SCALE
  5
54
102
{ACAD_REACTORS
330
47
102
}
330
47
100
AcDbScale
 70
     0
300
2:1
140
2.0
141
1.0
290
     0
  0
SCALE
  5
55
102
{ACAD_REACTORS
330
47
102
}
330
47
100
AcDbScale
 70
     0
300
4:1
140
4.0
141
1.0
290
     0
  0
SCALE
  5
56
102
{ACAD_REACTORS
330
47
102
}
330
47
100
AcDbScale
 70
     0
300
8:1
140
8.0
141
1.0
290
     0
  0
SCALE
  5
57
102
{ACAD_REACTORS
330
47
102
}
330
47
100
AcDbScale
 70
     0
300
10:1
140
10.0
141
1.0
290
     0
  0
SCALE
  5
58
102
{ACAD_REACTORS
330
47
102
}
330
47
100
AcDbScale
 70
     0
300
100:1
140
100.0
141
1.0
290
     0
  0
SCALE
  5
59
102
{ACAD_REACTORS
330
47
102
}
330
47
100
AcDbScale
 70
     0
300
1/128" = 1'-0"
140
0.0078125
141
12.0
290
     0
  0
SCALE
  5
5A
102
{ACAD_REACTORS
330
47
102
}
330
47
100
AcDbScale
 70
     0
300
1/64" = 1'-0"
140
0.015625
141
12.0
290
     0
  0
SCALE
  5
5B
102
{ACAD_REACTORS
330
47
102
}
330
47
100
AcDbScale
 70
     0
300
1/32" = 1'-0"
140
0.03125
141
12.0
290
     0
  0
SCALE
  5
5C
102
{ACAD_REACTORS
330
47
102
}
330
47
100
AcDbScale
 70
     0
300
1/16" = 1'-0"
140
0.0625
141
12.0
290
     0
  0
SCALE
  5
5D
102
{ACAD_REACTORS
330
47
102
}
330
47
100
AcDbScale
 70
     0
300
3/32" = 1'-0"
140
0.09375
141
12.0
290
     0
  0
SCALE
  5
5E
102
{ACAD_REACTORS
330
47
102
}
330
47
100
AcDbScale
 70
     0
300
1/8" = 1'-0"
140
0.125
141
12.0
290
     0
  0
SCALE
  5
5F
102
{ACAD_REACTORS
330
47
102
}
330
47
100
AcDbScale
 70
     0
300
3/16" = 1'-0"
140
0.1875
141
12.0
290
     0
  0
SCALE
  5
60
102
{ACAD_REACTORS
330
47
102
}
330
47
100
AcDbScale
 70
     0
300
1/4" = 1'-0"
140
0.25
141
12.0
290
     0
  0
SCALE
  5
61
102
{ACAD_REACTORS
330
47
102
}
330
47
100
AcDbScale
 70
     0
300
3/8" = 1'-0"
140
0.375
141
12.0
290
     0
  0
SCALE
  5
62
102
{ACAD_REACTORS
330
47
102
}
330
47
100
AcDbScale
 70
     0
300
1/2" = 1'-0"
140
0.5
141
12.0
290
     0
  0
SCALE
  5
63
102
{ACAD_REACTORS
330
47
102
}
330
47
100
AcDbScale
 70
     0
300
3/4" = 1'-0"
140
0.75
141
12.0
290
     0
  0
SCALE
  5
64
102
{ACAD_REACTORS
330
47
102
}
330
47
100
AcDbScale
 70
     0
300
1" = 1'-0"
140
1.0
141
12.0
290
     0
  0
SCALE
  5
65
102
{ACAD_REACTORS
330
47
102
}
330
47
100
AcDbScale
 70
     0
300
1-1/2" = 1'-0"
140
1.5
141
12.0
290
     0
  0
SCALE
  5
66
102
{ACAD_REACTORS
330
47
102
}
330
47
100
AcDbScale
 70
     0
300
3" = 1'-0"
140
3.0
141
12.0
290
     0
  0
SCALE
  5
67
102
{ACAD_REACTORS
330
47
102
}
330
47
100
AcDbScale
 70
     0
300
6" = 1'-0"
140
6.0
141
12.0
290
     0
  0
SCALE
  5
68
102
{ACAD_REACTORS
330
47
102
}
330
47
100
AcDbScale
 70
     0
300
1'-0" = 1'-0"
140
12.0
141
12.0
290
     0
  0
ENDSEC
  0
EOF
